4 красивые мелодии для начинающих гитаристов

0
40093
Классическая гитара фото

Как же часто бывает так, что загораешься, покупаешь гитару, хочешь, наконец, научиться, а выясняется, что все твои любимые мелодии не по силам новичку и остается тебе играть «Во саду ли в огороде» или какой-нибудь заунывный этюд. Не удивительно, что у многих начинающих гитаристов и гитаристок вскоре напрочь пропадает весь энтузиазм и купленная гитара годами пылится в углу.

Что же делать в таких ситуациях? Как пережить трудности новичка и не перегореть? Совет может быть один: играть то, что нравится. В этой статье вы найдете табы и ноты нескольких простых и цепляющих за душу мелодий. Бонусом послужит краткое текстовое описание к каждой из них.
Начнем с самого простого и очень эпичного. Марш империи из звездных войн

Intro:
G|---------------------------------------------------------------------------|
D|--5-5-5-5-5-5-------5-5-5-5-5-5-------5-5-5-5-5-5-------5-5-5-5-5-5--------|
A|--------------6-6-6-------------6-6-6-------------6-6-6-------------6-6-6--|
E|---------------------------------------------------------------------------|

Main Theme:
G|---------------------7-7-7-7-8-----------12-0-0-12-11-10-9-8-9-------------|
D|--5-5-5-5---8-5--8-5-----------8-----8-5-----------------------8-13-12-11--|
A|----------6----6-----------------9-6---------------------------------------|
E|---------------------------------------------------------------------------|

G|------------------------7-12-0-0-12-11-10-9-8-9----------------------------|
D|--10-9-10---5---5-8-5-8-------------------------8-13-12-11-10-9-10---5-----|
A|----------6---6----------------------------------------------------6-------|
E|---------------------------------------------------------------------------|

G|----------------|
D|----8-5---8-5---|  
A|--6-----6-------|
E|----------------|

Мелодия «Цыганочка». Табы мелодии:

E-3-1-3-1-1-0-1-0-0---0--------------0--3-1-3-1-1-0-1-0-0-0-2-4-5-5---
H---------------------------3-----3-3-1-3------------------------------------------------ 
G------------------------------------------------------------------------------------------- 
D-0----------------------------------------------0---------------------------------------- 
A-------------0-----------------------0-----------------------0---------------------0-- 
E-------------------------0------------------------------------------------0--------------

Мелодия из к/ф Бумер на гитаре. все на одной струне

1 струна: 0-3-3-0-5-3-5-3-5-3-5-3-5-7

Мелодия из к/ф «Титаник»

На первой струне (в скобках вторая)
5 5 5 5 4 5 5 4 5 5 9 7 5 5 5 5 4 5 5 (2)5 7 9 2 12 10 9 7 9 
10 9 7 5 4 5 5 2 7 9 2 12 10 9 7 9 10 9 7 5 4 5 4 4 5 5 9 7 5

Ну и что-то чуть сложнее и гораздо прекрасснее!

Scorpions – the wind of change

Один из самых популярных рок-хитов и в то же время очень простая к исполнению композиция. Очень повезло, не правда ли? Учить и разбирать произведение достаточно легко, все ноты находятся в первой-второй позиции на грифе.

Мелодия исполняется в умеренном темпе, что тоже значительно упрощает ситуацию. К тому же в ней практически нет трудных технических моментов. По уровню сложности – первый класс музыкальной школы, многие ученики учат ее даже одной из первых своих композиций, так что смело скачивайте легкие табы и наслаждайтесь глубиной этого произведения. К Вашему удобству вот и табулатура на эту песню.

Скачать табулатуру для Guitar pro Scorpions -wind of change

Посмотреть табулатуру в браузере Scorpions — wind of change (pdf)

Ария – Беспечный ангел

Практически сопоставимая с хитом скорпов, популярная отечественная рок-композиция группы Ария «Беспечный ангел». Исполняя ее на гитаре невозможно не запеть, а потому мы предлагаем вам легкие табулатуры с перебором в качестве аккомпанемента. Исполняется практически вся мелодия в технике арпеджио, куплет – простым боем. Композиция украшена парочкой легато. Чем не повод освоить новый прием?

А для новичков, желающих изучать произведения посложнее мы выложили полноценную аранжировку в табах. Невероятной красоты мелодия будет звучать на струнах вашей гитары, после того, как вы потратите несколько дней на усердные и добросовестные посиделки «с гитарой у таб». Но эти усилия не идут ни в какое сравнение с тем удовольствием, которое вы испытаете, когда ваша гитара запоет голосом Кипелова.

Скачать табулатуру Ария — Беспечный Ангел для программы Gitar Pro

Посмотреть табулатуру в браузере Ария — Беспечный Ангел

Аквариум – Город золотой

Ну и конечно же популярная песня Бориса Гребенщикова – Город золотой, которую практически всегда можно найти в топ-20 мелодий для начинающих. Кстати, маленький ликбез. Исторически, сама мелодия принадлежит итальянскому композитору Франческо Канова и является частью произведения «Сюита для лютни: канцона и танец».

Это произведение уже не такое легкое, как предыдущие два, тут есть моменты исполняющиеся и на более высоких ладах, чем первый и второй так, что вам придется потратить парочку дней, чтобы научиться играть эти переходы, не сбиваясь с темпа.

Скачать табулатуру для Guitar pro Аквариум — Город золотой

Посмотреть табулатуру в браузере Аквариум — Город золотой

 

Ю. Визбор – Милая моя

А для настоящих героев и героинь, которые подошли к обучению на гитаре основательно и решили изучать ноты, мы подготовили приятный сюрприз. Легкая к разбору и простая в исполнении популярная песня «Милая моя».

Эта мелодия станет отличным толчком, как для развития техники исполнения, так и для совершенствования музыкального слуха. Аранжировка прописана таким образом, что легко выделяется басовая, гармоническая и мелодическая составляющие. Звучать может немного пугающе, однако композиция настолько проста, что вы без труда сможете красиво выделять главную партию спустя 2-3 усердных занятия.

Скачать табулатуру для Guitar pro Юрий Визбор — Милая Моя

Посмотреть табулатуру в браузере Юрий Визбор — Милая Моя

Ну вот и все, надеемся, что вам понравился наш «дайджест по мелодиям для начинающих». Кстати, если вы заметили, все простые мелодии расположены «от легкой к сложной» так что вам не обязательно выбирать какую-то одну, изучайте их по очереди постепенно совершенствуя технику! Качайте табы, учите и наслаждайтесь прекрасным и мягким тембром гитарной музыки.

Вы можете помочь развитию нашего проекта, пожертвовав всего лишь стоимость одной чашки кофе или поездки на автобусе. Даже 10 рублей смогут помочь нам выкладывать больше свежего и интересного материала и наконец собрать деньги на разработку онлайн проигрывателя табулатур, который будет доступен совершенно бесплатно. Для нас очень важна Ваша поддержка, нам важно понимать что то, что мы делаем, полезно и нужно для Вас!

ОСТАВЬТЕ ОТВЕТ

Please enter your comment!
Please enter your name here

This blog is kept spam free by WP-SpamFree.