Аккорды, табы и минус Кино — Пачка сигарет

kino-pachka-sigaret-foto

Группа «Кино» пожалуй одна из самых популярных рок-групп 80-х на территории бывшего СССР. Одной из популярных песен этой группы, можно считать песню «Пачка сигарет». Без композиции группы «Кино» — «Пачка сигарет» не обходится ни один вечер у костра. Когда Виктор Цой написал эту песню не известно, тем не менее в программе «Летопись», было упоминание,что написана было произведение в 1988 году, в городе Алматы, когда проходили съемки фильма «Игла». МЫ подготовили подборку аккордов, минусовку и табулатуры, чтобы Вы тоже смогли научиться играть на гитаре эту можно сказа легендарную композицию.

Аккорды Кино — Пачка сигарет

applikatura-akkordov-pachka-sigaret

 intro
E|------7--5---------3-----------5-----------|7--5----------------3----------------5----------------|
B|-----------5----------5------------7-------|-------5------------------5---------------7------------|
G|4-5---------5----------5-------------5-4-|-----------5------------------5---------------5-4------|
D|---------------------------------------------|--------------------------------------------------------|
A|------0---------3----------5---------------|----0----------0-3---------------5--------------------|
E|----------------------------------------0----|--------------------------------------------------0-----|
                                                                 ▲- Искус-ые флаж. 
E|----7--5-----------3------------5---------|7--5-----------------------------------------------------|
B|----------5-----------5------------7-------|------5-----------7▲------------12▲--------7▲----|
G|4-5--------5------------5-----------5-4--|--------5-----5▲—-7▲---12▲---7▲-5▲—-7▲-|
D|--------------------------------------------|-----------------------------------------------------------|
A|----0----------3------------5-------------|----0------0--3------------5----------------------------|
E|---------------------------------------0----|-----------------------------------------------------------|

Простой бой ... Описание: V^V^
Вступление: Am Am C C | D D Em Em | Am C | D Em  } 2 раза

Em              Am                 C             D    Em
Я сижу и смотрю в чужое небо из чужого окна
Am                 C             D    Em
И не вижу ни одной знакомой звезды.
Am                     C             D       Em
Я ходил по всем дорогам и туда, и сюда,
Am                       C             D       Em
Обернулся — и не смог разглядеть следы.

Припев:
Em        Am                  C   D      Em
Но если есть в кармане пачка сигарет,
          Am                     C           D           Em
Значит все не так уж плохо на сегодняшний день.
     Am               C             D            Em
И билет на самолет с серебристым крылом,
             Am            C          D          Em
Что, взлетая, оставляет земле лишь тень.

Проигрыш: Am Am C C | D D Em Em | Am C | D Em  } 2 раза

Em   Am          C                 D            Em
И никто не хотел быть виноватым без вина,
    Am           C                 D            Em
И никто не хотел руками жар загребать.
          Am       C            D            Em
А без музыки на миру смерть не красна,
           Am          C           D      Em
А без музыки не хочется пропадать.

Припев: x2
Em        Am                  C   D      Em
Но если есть в кармане пачка сигарет,
          Am                     C           D           Em
Значит все не так уж плохо на сегодняшний день.
     Am               C             D            Em
И билет на самолет с серебристым крылом,
             Am            C          D          Em
Что, взлетая, оставляет земле лишь тень.

Кода: Am Am C C | D D Em Em | Am C | D Em  } 2 раза
      Am C | D Em | Am C | D Em  } 5 раз
      Am C | D Em | Am

Табулатура и минусовка Кино — Пачка сигарет

Скачать Табулатуру Кино — Пачка сигарет
Скачать табулатуру для акустической гитары Кино — Пачка сигарет
Скачать ноты для акустической гитары Кино — Пачка сигарет
Скачать минусовку для гитары Кино — Пачка Сигарет

Видео урок Кино — Пачка Сигарет

Клип Кино -Пачка Сигарет

Понравилась статья? Поделиться с друзьями:
Добавить комментарий

;-) :| :x :twisted: :smile: :shock: :sad: :roll: :razz: :oops: :o :mrgreen: :lol: :idea: :grin: :evil: :cry: :cool: :arrow: :???: :?: :!: